Помогите пожалуйста подобрать аккорды


Здравствуйте. Не могли бы помочь мне преобразовать бас табулатуру в аккорды для шести-струнной гитары? Буду премного благодарен :)
Собственно вот табулатура (не знаю насколько она правильно записана, но думаю суть ясна будет):
G------------------------------------------------------------
D-------------------------3--333----------------------------
A-0--00---3--33----555----------0--00-------555--3--333
E------------------------------------------3--33-------------

Комментарии:

  • 2014-11-22 18:17 Имя: aleksand

    Попробуй так:

    Am, C, G, F, Am, G, G, F
    0
  • 2014-11-22 18:17 Имя: artur

    Спасибо, что откликнулись.
    0
  • 2014-11-24 17:58 Имя: aleksand

    А, знач, аккорды не поперли?))))))))
    0
  • 2014-11-25 01:26 Имя: artur

    Ну, я играл боем и вот в месте где Am, G, G, второе G как-то не клеится. Или Вы подразумевали какую-то другую его вариацию? Поясните, я по большему счету профан)
    0
  • 2014-11-25 10:45 Имя: artur

    Так, уже разобрался. Значит не настолько я безнадежен)) Спасибо Вам большое. Хотя вы все таки разжуйте пожалуйста, на всякий случай))
    А, еще я совершенно забыл про проигрыш
    Вот так он выглядит:
    G-------------------------------------------------------------------------
    D-------------------------------------------------------------------------
    A-5--55---3--33---5--55---3--33---5--55--5--55--------8--888888
    E-----------------------------------------------------1--11-------------
    0
  • 2014-11-25 20:26 Имя: dmitrij

    D, C, D, C, D, F
    0
  • 2014-11-29 00:08 Имя: artur

    Спасибо )
    0
  • 2014-11-29 03:43 Имя: aleksand

    Да я тож ламер в смысле гитары))) я просто по тонике подобрал. первое Г - блатная аппликатура, второе - барре... но разницы по большому счету нет)
    0

Добавить комментарий



Каптча: